Tabs Fácil de... Bandera Negra. Mägo de Oz.


  Mägo de Oz vuelve a la carga y nos presenta "Bandera Negra" tercer adelanto y el corte que da título a su próximo disco anunciado para el 3 de Septiembre.

Mientras todos pensábamos que Mägo de Oz permanecía en letargo, a la espera de cambios en la situación mundial para reanudar sus conciertos, la noticia sorprendía a todos los fans de la banda. Mägo de Oz anunciaba que ya tenía un nuevo disco preparado, grabado durante los meses de verano en secreto y nos daba, además, fecha de salida, el 9 de Abril del 2021, fecha que era pocos meses después cancelada y pospuesta al 3 de Septiembre de 2021.



  Un disco, como ellos declaraban desde su página oficial, completamente distinto a "Ira Dei" con un aire más optimista, gamberro y jovial, y con el que vuelven a contar con Gaboni para la portada.

  El plástico llevará por título "Bandera Negra" y de momento, ya podemos disfrutar de 3 temas, "El Cervezo", "Tu madre es una Cabra" y este "Bandera Negra" de mismo título que el disco, que podemos disfrutar en formato video lyric.



Hoy os quiero dejar un pequeño fragmento en tablatura para guitarra de ese comienzo guitarrero tan épico con el que da inicio "Bandera Negra", coge tu guitarra y disfruta como un pirata de "Bandera Negra" y Mägo de Oz.

Un Saludo.


Tabs Fácil de... Bandera Negra. Mägo de Oz.


1.------------------------|
2.------------------------|
3.------------------------|
4.-------2-3-2------------|
5.-0-3-5-------3--5--0----|
6.------------------------|

1.------------------------|
2.------------------------|
3.------------------------|
4.-------2-3-2--3--5------|
5.-0-3-5------------------|
6.------------------------|

1.------------------------|
2.------------------------|
3.-0-2-3--2-0-2-----------|
4.--------------3-5--3-2-0|
5.------------------------|
6.------------------------|

1.-------3-5-3------------|
2.-3-5-6-------5---3------|
3.---------------5--------|
4.------------------------|
5.------------------------|
6.------------------------|

1.------------------------|
2.-------5-6-5------------|
3.---5-7--------5--7------|
4.-7------------------7---|
5.------------------------|
6.------------------------|

1.----------------------6-8
2.-------5-6-5--6--8------|
3.---5-7------------------|
4.-7----------------------|
5.------------------------|
6.------------------------|

1.-10-10--8-6-8----6------|
2.---------------10---10-8|
3.------------------------|
4.------------------------|
5.------------------------|
6.------------------------|

1.------------6-8-6-5-----|
2.-6---6-8-10---------5-6-|
3.------------------------|
4.------------------------|
5.------------------------|
6.---------------------|...

Comentarios

En Hora-Kalavera:

El Galardonado Vodka de Korpiklaani.

Acordes de... "Segundo Movimiento: Mierda de Filosofía." Robe.

"Black Sabbath" Historia de los Padres del heavy Metal.

Tabs Fácil de... "Livgardet/ The Royal Guard." Sabaton.

Scott Ian y Dave Lombardo en la B.S.O. De “Patrulla Trueno” Próximo Estreno de Netflix.

Amon Amarth en "Legacy of the Beast" de Iron Maiden.

Acordes para Guitarra de... El Cervezo. (El árbol de la Birra). Mägo de Oz.

"Randy Rhoads By Ross Halfin." Libro de Fotografías.

"Royal Guard Game" el Nuevo Videojuego de Sabaton.