Tabs Fácil de... "Livgardet/ The Royal Guard." Sabaton.

Tabs Fácil de... "Livgardet/ The Royal Guard." Sabaton.
Sabaton, la banda de heavy metal formada en 1999 procedente de Suecia cuyas letras, ilustraciones y parafernalia abordan todo tipo de temas relacionados con la historia bélica, lanza un nuevo single cantado en sueco "Livgardet" del que  ya han presentado un videoclip. El tema, es un homenaje de la banda a la Guardia Real Sueca, que lleva activa desde el siglo XVI. 



 Los suecos también anunciaban  el lanzamiento del tema en su versión en inglés, "The Royal Guard", que saldrá a la venta el próximo 9 de abril y que vendrá en una edición de tirada limitada en varios vinilos, uno de ellos, que ya se encuentra totalmente agotado tiene la singularidad de que llevará pólvora real prensada en el mismo vinilo.

"Royal Guard Game" el Nuevo VideoJuego de Sabaton.

 Para amenizarnos la espera y con motivo de haber alcanzado los 200.000 me gusta en su lista de Spotify "This is Sabaton" la banda nos regala un sencillo juego, "Royal Guard Game" en 2D en el que nos podemos convertir en miembro activo de la Guardia Real y defender la corona de los cañonazos enemigos al ritmo de su música.



Desde Hora-Kalavera quiero dejarte un pequeño fragmento en tablatura para guitarra del próximo estreno de los suecos Sabaton, "The Royal Guard."

Un saludo.


Tabs Fácil de... "Livgardet/ The Royal Guard." Sabaton.


(3:19)

1.------------------------|
2.------------------------|
3.-------------------2-3-5|
4.-------------2-3-5------|
5.-------0-1-3------------|
6.-0-1-3------------------|

1.------------------------|
2.-6----/8--5--/6--5h6p5-3|
3.---5--------------------|
4.------------------------|
5.------------------------|
6.------------------------|

1.------------------------|
2.------------------------|
3.-5-2--/7-7-5h7p5-3-5--3-3
4.------------------------|
5.------------------------|
6.------------------------|

1.-------3-5-5(6)--5(6)-5-|
2.-6--6-------------------|
3.------------------------|
4.------------------------|
5.------------------------|
6.------------------------|

1.-5h6p5-3---3------------|
2.---------6---------13---|
3.---------------/10----/9|
4.------------------------|
5.------------------------|
6.------------------------|

1.----12(13)-12(13)-12-10-|
2.-17---------------------|
3.------------------------|
4.------------------------|
5.------------------------|
6.------------------------|

1.--------------------|
2.-13-10----------11--|
3.-------10-12-14-----|
4.--------------------|
5.--------------------|
6.-----------------|...

Comentarios

En Hora-Kalavera:

El Galardonado Vodka de Korpiklaani.

Acordes de... "Segundo Movimiento: Mierda de Filosofía." Robe.

"Black Sabbath" Historia de los Padres del heavy Metal.

Tabs Fácil de... Bandera Negra. Mägo de Oz.

Scott Ian y Dave Lombardo en la B.S.O. De “Patrulla Trueno” Próximo Estreno de Netflix.

Amon Amarth en "Legacy of the Beast" de Iron Maiden.

Acordes para Guitarra de... El Cervezo. (El árbol de la Birra). Mägo de Oz.

"Randy Rhoads By Ross Halfin." Libro de Fotografías.

"Royal Guard Game" el Nuevo Videojuego de Sabaton.